  0
SECTION
  2
HEADER
  9
$ACADVER
  1
AC1009
  9
$INSBASE
 10
0.0
 20
0.0
 30
0.0
  9
$EXTMIN
 10
-5.0
 20
-4.5
 30
0.0
  9
$EXTMAX
 10
66.0
 20
50.5
 30
0.0
  9
$LIMMIN
 10
0.0
 20
0.0
  9
$LIMMAX
 10
50.0
 20
50.0
  9
$ORTHOMODE
 70
     0
  9
$REGENMODE
 70
     1
  9
$FILLMODE
 70
     1
  9
$QTEXTMODE
 70
     0
  9
$MIRRTEXT
 70
     1
  9
$DRAGMODE
 70
     2
  9
$LTSCALE
 40
1.0
  9
$OSMODE
 70
     0
  9
$ATTMODE
 70
     1
  9
$TEXTSIZE
 40
50.0
  9
$TRACEWID
 40
0.05
  9
$TEXTSTYLE
  7
STANDARD
  9
$CLAYER
  8
0
  9
$CELTYPE
  6
BYLAYER
  9
$CECOLOR
 62
   256
  9
$DIMSCALE
 40
12.0
  9
$DIMASZ
 40
0.09375
  9
$DIMEXO
 40
0.0625
  9
$DIMDLI
 40
0.38
  9
$DIMRND
 40
0.0
  9
$DIMDLE
 40
0.0
  9
$DIMEXE
 40
0.18
  9
$DIMTP
 40
0.0
  9
$DIMTM
 40
0.0
  9
$DIMTXT
 40
0.09375
  9
$DIMCEN
 40
0.09
  9
$DIMTSZ
 40
0.0
  9
$DIMTOL
 70
     0
  9
$DIMLIM
 70
     0
  9
$DIMTIH
 70
     1
  9
$DIMTOH
 70
     1
  9
$DIMSE1
 70
     0
  9
$DIMSE2
 70
     0
  9
$DIMTAD
 70
     0
  9
$DIMZIN
 70
     0
  9
$DIMBLK
  1

  9
$DIMASO
 70
     1
  9
$DIMSHO
 70
     1
  9
$DIMPOST
  1

  9
$DIMAPOST
  1

  9
$DIMALT
 70
     0
  9
$DIMALTD
 70
     2
  9
$DIMALTF
 40
25.4
  9
$DIMLFAC
 40
1.0
  9
$DIMTOFL
 70
     0
  9
$DIMTVP
 40
0.0
  9
$DIMTIX
 70
     0
  9
$DIMSOXD
 70
     0
  9
$DIMSAH
 70
     0
  9
$DIMBLK1
  1

  9
$DIMBLK2
  1

  9
$DIMSTYLE
  2
*UNNAMED
  9
$DIMCLRD
 70
     3
  9
$DIMCLRE
 70
     0
  9
$DIMCLRT
 70
     0
  9
$DIMTFAC
 40
1.0
  9
$DIMGAP
 40
0.09
  9
$LUNITS
 70
     2
  9
$LUPREC
 70
     0
  9
$AXISMODE
 70
     0
  9
$AXISUNIT
 10
0.0
 20
0.0
  9
$SKETCHINC
 40
0.1
  9
$FILLETRAD
 40
0.0
  9
$AUNITS
 70
     0
  9
$AUPREC
 70
     0
  9
$MENU
  1
acad
  9
$ELEVATION
 40
0.0
  9
$PELEVATION
 40
0.0
  9
$THICKNESS
 40
0.0
  9
$LIMCHECK
 70
     0
  9
$BLIPMODE
 70
     0
  9
$CHAMFERA
 40
0.0
  9
$CHAMFERB
 40
0.0
  9
$SKPOLY
 70
     0
  9
$TDCREATE
 40
2448653.533700925
  9
$TDUPDATE
 40
2448653.589815856
  9
$TDINDWG
 40
0.0375178241
  9
$TDUSRTIMER
 40
0.0375178241
  9
$USRTIMER
 70
     1
  9
$ANGBASE
 50
0.0
  9
$ANGDIR
 70
     0
  9
$PDMODE
 70
     0
  9
$PDSIZE
 40
0.0
  9
$PLINEWID
 40
0.0
  9
$COORDS
 70
     0
  9
$SPLFRAME
 70
     0
  9
$SPLINETYPE
 70
     6
  9
$SPLINESEGS
 70
     8
  9
$ATTDIA
 70
     0
  9
$ATTREQ
 70
     1
  9
$HANDLING
 70
     0
  9
$HANDSEED
  5
0
  9
$SURFTAB1
 70
     6
  9
$SURFTAB2
 70
     6
  9
$SURFTYPE
 70
     6
  9
$SURFU
 70
     6
  9
$SURFV
 70
     6
  9
$UCSNAME
  2

  9
$UCSORG
 10
0.0
 20
0.0
 30
0.0
  9
$UCSXDIR
 10
1.0
 20
0.0
 30
0.0
  9
$UCSYDIR
 10
0.0
 20
1.0
 30
0.0
  9
$PUCSNAME
  2

  9
$PUCSORG
 10
0.0
 20
0.0
 30
0.0
  9
$PUCSXDIR
 10
1.0
 20
0.0
 30
0.0
  9
$PUCSYDIR
 10
0.0
 20
1.0
 30
0.0
  9
$USERI1
 70
     0
  9
$USERI2
 70
     0
  9
$USERI3
 70
     0
  9
$USERI4
 70
     0
  9
$USERI5
 70
     0
  9
$USERR1
 40
0.0
  9
$USERR2
 40
0.0
  9
$USERR3
 40
0.0
  9
$USERR4
 40
0.0
  9
$USERR5
 40
0.0
  9
$WORLDVIEW
 70
     1
  9
$SHADEDGE
 70
     3
  9
$SHADEDIF
 70
    70
  9
$TILEMODE
 70
     1
  9
$MAXACTVP
 70
    16
  9
$PINSBASE
 10
0.0
 20
0.0
 30
0.0
  9
$PLIMCHECK
 70
     0
  9
$PEXTMIN
 10
1.000000E+20
 20
1.000000E+20
 30
1.000000E+20
  9
$PEXTMAX
 10
-1.000000E+20
 20
-1.000000E+20
 30
-1.000000E+20
  9
$PLIMMIN
 10
0.0
 20
0.0
  9
$PLIMMAX
 10
12.0
 20
9.0
  9
$UNITMODE
 70
     0
  9
$VISRETAIN
 70
     0
  0
ENDSEC
  0
SECTION
  2
TABLES
  0
TABLE
  2
VPORT
 70
     2
  0
VPORT
  2
*ACTIVE
 70
     0
 10
0.0
 20
0.0
 11
1.0
 21
1.0
 12
31.724368
 22
25.0
 13
0.0
 23
0.0
 14
1.0
 24
1.0
 15
1.0
 25
1.0
 16
0.0
 26
0.0
 36
1.0
 17
0.0
 27
0.0
 37
0.0
 40
62.5
 41
1.268975
 42
50.0
 43
0.0
 44
0.0
 50
0.0
 51
0.0
 71
     0
 72
   100
 73
     1
 74
     0
 75
     1
 76
     1
 77
     0
 78
     0
  0
ENDTAB
  0
TABLE
  2
LTYPE
 70
     1
  0
LTYPE
  2
CONTINUOUS
 70
    64
  3
Solid line
 72
    65
 73
     0
 40
0.0
  0
ENDTAB
  0
TABLE
  2
LAYER
 70
     1
  0
LAYER
  2
0
 70
    64
 62
     7
  6
CONTINUOUS
  0
ENDTAB
  0
TABLE
  2
STYLE
 70
     1
  0
STYLE
  2
STANDARD
 70
    64
 40
0.0
 41
1.0
 50
0.0
 71
     0
 42
1.0
  3
txt
  4

  0
ENDTAB
  0
TABLE
  2
VIEW
 70
     1
  0
VIEW
  2
A
 70
     0
 40
49.99998
 10
25.0
 20
25.0
 41
49.99998
 11
0.0
 21
0.0
 31
1.0
 12
0.0
 22
0.0
 32
0.0
 42
50.0
 43
0.0
 44
0.0
 50
0.0
 71
     0
  0
ENDTAB
  0
TABLE
  2
UCS
 70
     0
  0
ENDTAB
  0
TABLE
  2
APPID
 70
     1
  0
APPID
  2
ACAD
 70
    64
  0
ENDTAB
  0
TABLE
  2
DIMSTYLE
 70
     0
  0
ENDTAB
  0
ENDSEC
  0
SECTION
  2
BLOCKS
  0
BLOCK
  8
0
  2
1
 70
    64
 10
0.0
 20
0.0
 30
0.0
  3
1
  0
TEXT
  8
0
 62
     3
 10
62.0
 20
-0.5
 30
0.0
 40
1.0
  1
(60,0)
  0
TEXT
  8
0
 62
     3
 10
-5.0
 20
-0.5
 30
0.0
 40
1.0
  1
(0,0)
  0
TEXT
  8
0
 62
     3
 10
51.0
 20
49.5
 30
0.0
 40
1.0
  1
(50,50)
  0
SOLID
  8
0
 62
     3
 10
59.95625
 20
-0.084375
 30
0.0
 11
59.93125
 21
-0.065625
 31
0.0
 12
60.0
 22
0.0
 32
0.0
 13
60.0
 23
0.0
 33
0.0
  0
SOLID
  8
0
 62
     3
 10
59.475
 20
-1.0125
 30
0.0
 11
59.175
 21
-0.7875
 31
0.0
 12
60.0
 22
0.0
 32
0.0
 13
60.0
 23
0.0
 33
0.0
  0
LINE
  8
0
 62
     3
 10
59.325
 20
-0.9
 30
0.0
 11
57.0
 21
-4.0
 31
0.0
  0
LINE
  8
0
 62
     3
 10
57.0
 20
-4.0
 30
0.0
 11
56.0
 21
-4.0
 31
0.0
  0
LINE
  8
0
 62
     3
 10
3.0
 20
-4.0
 30
0.0
 11
4.0
 21
-4.0
 31
0.0
  0
LINE
  8
0
 62
     3
 10
0.675
 20
-0.9
 30
0.0
 11
3.0
 21
-4.0
 31
0.0
  0
SOLID
  8
0
 62
     3
 10
0.525
 20
-1.0125
 30
0.0
 11
0.825
 21
-0.7875
 31
0.0
 12
0.0
 22
0.0
 32
0.0
 13
0.0
 23
0.0
 33
0.0
  0
SOLID
  8
0
 62
     3
 10
0.04375
 20
-0.084375
 30
0.0
 11
0.06875
 21
-0.065625
 31
0.0
 12
0.0
 22
0.0
 32
0.0
 13
0.0
 23
0.0
 33
0.0
  0
TEXT
  8
0
 62
     3
 10
47.0
 20
-4.5
 30
0.0
 40
1.0
  1
end here.
  0
TEXT
  8
0
 62
     3
 10
5.0
 20
-4.5
 30
0.0
 40
1.0
  1
start here.
  0
CIRCLE
  8
0
 62
     1
 10
0.0
 20
0.0
 30
0.0
 40
1.0
  0
CIRCLE
  8
0
 62
     1
 10
60.0
 20
0.0
 30
0.0
 40
1.0
  0
LINE
  8
0
 62
     4
 10
0.0
 20
50.0
 30
0.0
 11
0.0
 21
0.0
 31
0.0
  0
LINE
  8
0
 62
     4
 10
50.0
 20
50.0
 30
0.0
 11
0.0
 21
50.0
 31
0.0
  0
LINE
  8
0
 62
     4
 10
50.0
 20
0.0
 30
0.0
 11
50.0
 21
50.0
 31
0.0
  0
LINE
  8
0
 62
     4
 10
0.0
 20
0.0
 30
0.0
 11
50.0
 21
0.0
 31
0.0
  0
ENDBLK
  8
0
  0
BLOCK
  8
0
  2
2
 70
    64
 10
0.0
 20
0.0
 30
0.0
  3
2
  0
POLYLINE
  8
0
 66
     1
 10
0.0
 20
0.0
 30
0.0
 40
0.25
 41
0.25
  0
VERTEX
  8
0
 10
0.0
 20
31.0
 30
0.0
  0
VERTEX
  8
0
 10
0.0
 20
36.0
 30
0.0
  0
VERTEX
  8
0
 10
3.0
 20
43.0
 30
0.0
  0
VERTEX
  8
0
 10
8.0
 20
47.0
 30
0.0
  0
VERTEX
  8
0
 10
15.0
 20
50.0
 30
0.0
  0
VERTEX
  8
0
 10
22.0
 20
50.0
 30
0.0
  0
VERTEX
  8
0
 10
28.0
 20
48.0
 30
0.0
  0
VERTEX
  8
0
 10
31.0
 20
45.0
 30
0.0
  0
VERTEX
  8
0
 10
33.0
 20
41.0
 30
0.0
  0
VERTEX
  8
0
 10
33.0
 20
33.0
 30
0.0
  0
VERTEX
  8
0
 10
30.0
 20
27.0
 30
0.0
  0
VERTEX
  8
0
 10
5.0
 20
-3.0
 30
0.0
  0
SEQEND
  8
0
  0
POLYLINE
  8
0
 66
     1
 10
0.0
 20
0.0
 30
0.0
 40
0.25
 41
0.25
  0
VERTEX
  8
0
 10
3.0
 20
0.0
 30
0.0
  0
VERTEX
  8
0
 10
35.0
 20
0.0
 30
0.0
  0
SEQEND
  8
0
  0
ENDBLK
  8
0
  0
ENDSEC
  0
SECTION
  2
ENTITIES
  0
INSERT
  8
0
  2
1
 10
0.0
 20
0.0
 30
0.0
  0
INSERT
  8
0
  2
2
 10
0.0
 20
0.0
 30
0.0
  0
ENDSEC
  0
EOF
